ISO-10303-21;
HEADER;
FILE_DESCRIPTION (( 'STEP AP203' ),
    '1' );
FILE_NAME ('BK7-LPDBSP-25.4-1000.STEP',
    '2020-12-22T02:18:02',
    ( '' ),
    ( '' ),
    'SwSTEP 2.0',
    'SolidWorks 2020',
    '' );
FILE_SCHEMA (( 'CONFIG_CONTROL_DESIGN' ));
ENDSEC;

DATA;
#1 = CARTESIAN_POINT ( 'NONE',  ( 3.499999999999999112, 12.69999999999999929, 0.000000000000000000 ) ) ;
#2 = CARTESIAN_POINT ( 'NONE',  ( -1.187907395172932594E-15, 0.000000000000000000, 0.000000000000000000 ) ) ;
#3 = APPROVAL_PERSON_ORGANIZATION ( #26, #69, #169 ) ;
#4 = DIRECTION ( 'NONE',  ( 1.000000000000000000, 0.000000000000000000, 0.000000000000000000 ) ) ;
#5 = APPLICATION_PROTOCOL_DEFINITION ( 'international standard', 'config_control_design', 1994, #90 ) ;
#6 = PRODUCT_RELATED_PRODUCT_CATEGORY ( 'detail', '', ( #158 ) ) ;
#7 = DIRECTION ( 'NONE',  ( -1.000000000000000000, -0.000000000000000000, -0.000000000000000000 ) ) ;
#8 = CC_DESIGN_PERSON_AND_ORGANIZATION_ASSIGNMENT ( #168, #51, ( #99 ) ) ;
#9 = COORDINATED_UNIVERSAL_TIME_OFFSET ( 8, 0, .AHEAD. ) ;
#10 = DATE_AND_TIME ( #107, #148 ) ;
#11 = LOCAL_TIME ( 10, 18, 2.000000000000000000, #163 ) ;
#12 = SECURITY_CLASSIFICATION ( '', '', #40 ) ;
#13 = CARTESIAN_POINT ( 'NONE',  ( 0.000000000000000000, 1.555301434917138433E-15, -12.69999999999999929 ) ) ;
#14 = DESIGN_CONTEXT ( 'detailed design', #90, 'design' ) ;
#15 = VERTEX_POINT ( 'NONE', #42 ) ;
#16 = DIRECTION ( 'NONE',  ( -1.000000000000000000, -0.000000000000000000, -0.000000000000000000 ) ) ;
#17 = AXIS2_PLACEMENT_3D ( 'NONE', #165, #81, #84 ) ;
#18 = DIRECTION ( 'NONE',  ( 1.000000000000000000, 0.000000000000000000, 0.000000000000000000 ) ) ;
#19 = DIRECTION ( 'NONE',  ( 0.000000000000000000, 0.000000000000000000, 1.000000000000000000 ) ) ;
#20 = APPROVAL ( #108, 'UNSPECIFIED' ) ;
#21 = DIRECTION ( 'NONE',  ( 0.000000000000000000, 0.000000000000000000, 1.000000000000000000 ) ) ;
#22 = CIRCLE ( 'NONE', #28, 12.69999999999999929 ) ;
#23 = LOCAL_TIME ( 10, 18, 2.000000000000000000, #110 ) ;
#24 = APPROVAL_DATE_TIME ( #96, #69 ) ;
#25 = ADVANCED_FACE ( 'NONE', ( #61 ), #111, .F. ) ;
#26 = PERSON_AND_ORGANIZATION ( #100, #97 ) ;
#27 = CC_DESIGN_PERSON_AND_ORGANIZATION_ASSIGNMENT ( #92, #135, ( #158 ) ) ;
#28 = AXIS2_PLACEMENT_3D ( 'NONE', #91, #16, #112 ) ;
#29 = EDGE_LOOP ( 'NONE', ( #161, #78 ) ) ;
#30 = ORIENTED_EDGE ( 'NONE', *, *, #146, .F. ) ;
#31 = LOCAL_TIME ( 10, 18, 2.000000000000000000, #55 ) ;
#32 = MANIFOLD_SOLID_BREP ( 'Ðý×', #153 ) ;
#33 = CC_DESIGN_PERSON_AND_ORGANIZATION_ASSIGNMENT ( #70, #173, ( #79 ) ) ;
#34 = CARTESIAN_POINT ( 'NONE',  ( -5.939536975864662969E-16, 12.69999999999999929, 0.000000000000000000 ) ) ;
#35 = ORIENTED_EDGE ( 'NONE', *, *, #150, .T. ) ;
#36 = DIRECTION ( 'NONE',  ( 0.000000000000000000, 0.000000000000000000, -1.000000000000000000 ) ) ;
#37 = DIRECTION ( 'NONE',  ( 0.000000000000000000, 0.000000000000000000, 1.000000000000000000 ) ) ;
#38 = APPROVAL_STATUS ( 'not_yet_approved' ) ;
#39 = MECHANICAL_CONTEXT ( 'NONE', #74, 'mechanical' ) ;
#40 = SECURITY_CLASSIFICATION_LEVEL ( 'unclassified' ) ;
#41 = ADVANCED_FACE ( 'NONE', ( #104 ), #44, .F. ) ;
#42 = CARTESIAN_POINT ( 'NONE',  ( 3.499999999999998224, 0.000000000000000000, 12.69999999999999929 ) ) ;
#43 = VERTEX_POINT ( 'NONE', #62 ) ;
#44 = PLANE ( 'NONE',  #149 ) ;
#45 = ADVANCED_FACE ( 'NONE', ( #87 ), #142, .T. ) ;
#46 = ORIENTED_EDGE ( 'NONE', *, *, #152, .F. ) ;
#47 = FACE_OUTER_BOUND ( 'NONE', #125, .T. ) ;
#48 = CIRCLE ( 'NONE', #118, 12.69999999999999929 ) ;
#49 = COORDINATED_UNIVERSAL_TIME_OFFSET ( 8, 0, .AHEAD. ) ;
#50 = AXIS2_PLACEMENT_3D ( 'NONE', #83, #37, #18 ) ;
#51 = PERSON_AND_ORGANIZATION_ROLE ( 'creator' ) ;
#52 = PERSON_AND_ORGANIZATION ( #100, #97 ) ;
#53 = VECTOR ( 'NONE', #116, 1000.000000000000000 ) ;
#54 = APPROVAL_PERSON_ORGANIZATION ( #156, #71, #115 ) ;
#55 = COORDINATED_UNIVERSAL_TIME_OFFSET ( 8, 0, .AHEAD. ) ;
#56 = APPROVAL_ROLE ( '' ) ;
#57 = CC_DESIGN_DATE_AND_TIME_ASSIGNMENT ( #10, #159, ( #99 ) ) ;
#58 = PERSON_AND_ORGANIZATION_ROLE ( 'classification_officer' ) ;
#59 = VECTOR ( 'NONE', #130, 1000.000000000000000 ) ;
#60 = CC_DESIGN_APPROVAL ( #20, ( #12 ) ) ;
#61 = FACE_OUTER_BOUND ( 'NONE', #29, .T. ) ;
#62 = CARTESIAN_POINT ( 'NONE',  ( -1.187907395172932594E-15, 1.555301434917138433E-15, -12.69999999999999929 ) ) ;
#63 = AXIS2_PLACEMENT_3D ( 'NONE', #34, #4, #36 ) ;
#64 = DIRECTION ( 'NONE',  ( 0.000000000000000000, 0.000000000000000000, 1.000000000000000000 ) ) ;
#65 = VERTEX_POINT ( 'NONE', #162 ) ;
#66 = CARTESIAN_POINT ( 'NONE',  ( 0.000000000000000000, 0.000000000000000000, 0.000000000000000000 ) ) ;
#67 = LOCAL_TIME ( 10, 18, 2.000000000000000000, #9 ) ;
#68 = DATE_TIME_ROLE ( 'classification_date' ) ;
#69 = APPROVAL ( #121, 'UNSPECIFIED' ) ;
#70 = PERSON_AND_ORGANIZATION ( #100, #97 ) ;
#71 = APPROVAL ( #38, 'UNSPECIFIED' ) ;
#72 = DATE_AND_TIME ( #109, #23 ) ;
#73 = CC_DESIGN_SECURITY_CLASSIFICATION ( #12, ( #79 ) ) ;
#74 = APPLICATION_CONTEXT ( 'configuration controlled 3d designs of mechanical parts and assemblies' ) ;
#75 = LINE ( 'NONE', #134, #53 ) ;
#76 = VERTEX_POINT ( 'NONE', #143 ) ;
#77 = DIRECTION ( 'NONE',  ( -1.000000000000000000, 0.000000000000000000, -0.000000000000000000 ) ) ;
#78 = ORIENTED_EDGE ( 'NONE', *, *, #146, .T. ) ;
#79 = PRODUCT_DEFINITION_FORMATION_WITH_SPECIFIED_SOURCE ( 'ANY', '', #158, .NOT_KNOWN. ) ;
#80 = ORIENTED_EDGE ( 'NONE', *, *, #144, .F. ) ;
#81 = DIRECTION ( 'NONE',  ( -1.000000000000000000, -0.000000000000000000, -0.000000000000000000 ) ) ;
#82 = CC_DESIGN_PERSON_AND_ORGANIZATION_ASSIGNMENT ( #85, #123, ( #79 ) ) ;
#83 = CARTESIAN_POINT ( 'NONE',  ( 0.000000000000000000, 0.000000000000000000, 0.000000000000000000 ) ) ;
#84 = DIRECTION ( 'NONE',  ( 0.000000000000000000, 0.000000000000000000, 1.000000000000000000 ) ) ;
#85 = PERSON_AND_ORGANIZATION ( #100, #97 ) ;
#86 = CC_DESIGN_PERSON_AND_ORGANIZATION_ASSIGNMENT ( #52, #58, ( #12 ) ) ;
#87 = FACE_OUTER_BOUND ( 'NONE', #126, .T. ) ;
#88 = EDGE_LOOP ( 'NONE', ( #46, #129 ) ) ;
#89 = DIRECTION ( 'NONE',  ( 0.000000000000000000, 0.000000000000000000, 1.000000000000000000 ) ) ;
#90 = APPLICATION_CONTEXT ( 'configuration controlled 3d designs of mechanical parts and assemblies' ) ;
#91 = CARTESIAN_POINT ( 'NONE',  ( -1.187907395172932594E-15, 0.000000000000000000, 0.000000000000000000 ) ) ;
#92 = PERSON_AND_ORGANIZATION ( #100, #97 ) ;
#93 = CALENDAR_DATE ( 2020, 22, 12 ) ;
#94 = DIRECTION ( 'NONE',  ( -1.000000000000000000, -0.000000000000000000, -0.000000000000000000 ) ) ;
#95 = DATE_AND_TIME ( #93, #11 ) ;
#96 = DATE_AND_TIME ( #138, #67 ) ;
#97 = ORGANIZATION ( 'UNSPECIFIED', 'UNSPECIFIED', '' ) ;
#98 = AXIS2_PLACEMENT_3D ( 'NONE', #66, #145, #19 ) ;
#99 = PRODUCT_DEFINITION ( 'UNKNOWN', '', #79, #14 ) ;
#100 = PERSON ( 'UNSPECIFIED', 'UNSPECIFIED', 'UNSPECIFIED', ('UNSPECIFIED'), ('UNSPECIFIED'), ('UNSPECIFIED') ) ;
#101 = AXIS2_PLACEMENT_3D ( 'NONE', #128, #113, #64 ) ;
#102 = DIRECTION ( 'NONE',  ( -0.000000000000000000, 0.000000000000000000, 1.000000000000000000 ) ) ;
#103 =( NAMED_UNIT ( * ) PLANE_ANGLE_UNIT ( ) SI_UNIT ( $, .RADIAN. ) );
#104 = FACE_OUTER_BOUND ( 'NONE', #88, .T. ) ;
#105 = ORIENTED_EDGE ( 'NONE', *, *, #122, .F. ) ;
#106 =( LENGTH_UNIT ( ) NAMED_UNIT ( * ) SI_UNIT ( .MILLI., .METRE. ) );
#107 = CALENDAR_DATE ( 2020, 22, 12 ) ;
#108 = APPROVAL_STATUS ( 'not_yet_approved' ) ;
#109 = CALENDAR_DATE ( 2020, 22, 12 ) ;
#110 = COORDINATED_UNIVERSAL_TIME_OFFSET ( 8, 0, .AHEAD. ) ;
#111 = PLANE ( 'NONE',  #63 ) ;
#112 = DIRECTION ( 'NONE',  ( 0.000000000000000000, 0.000000000000000000, 1.000000000000000000 ) ) ;
#113 = DIRECTION ( 'NONE',  ( -1.000000000000000000, -0.000000000000000000, -0.000000000000000000 ) ) ;
#114 = ORIENTED_EDGE ( 'NONE', *, *, #127, .T. ) ;
#115 = APPROVAL_ROLE ( '' ) ;
#116 = DIRECTION ( 'NONE',  ( -1.000000000000000000, -0.000000000000000000, -0.000000000000000000 ) ) ;
#117 = CYLINDRICAL_SURFACE ( 'NONE', #98, 12.69999999999999929 ) ;
#118 = AXIS2_PLACEMENT_3D ( 'NONE', #2, #94, #21 ) ;
#119 = APPLICATION_PROTOCOL_DEFINITION ( 'international standard', 'config_control_design', 1994, #74 ) ;
#120 = APPROVAL_DATE_TIME ( #174, #20 ) ;
#121 = APPROVAL_STATUS ( 'not_yet_approved' ) ;
#122 = EDGE_CURVE ( 'NONE', #65, #43, #22, .T. ) ;
#123 = PERSON_AND_ORGANIZATION_ROLE ( 'design_supplier' ) ;
#124 = CALENDAR_DATE ( 2020, 22, 12 ) ;
#125 = EDGE_LOOP ( 'NONE', ( #80, #35, #114, #30 ) ) ;
#126 = EDGE_LOOP ( 'NONE', ( #155, #140, #105, #157 ) ) ;
#127 = EDGE_CURVE ( 'NONE', #15, #65, #75, .T. ) ;
#128 = CARTESIAN_POINT ( 'NONE',  ( 0.000000000000000000, 0.000000000000000000, 0.000000000000000000 ) ) ;
#129 = ORIENTED_EDGE ( 'NONE', *, *, #150, .F. ) ;
#130 = DIRECTION ( 'NONE',  ( -1.000000000000000000, -0.000000000000000000, -0.000000000000000000 ) ) ;
#131 = CIRCLE ( 'NONE', #170, 12.69999999999999929 ) ;
#132 = CC_DESIGN_APPROVAL ( #69, ( #79 ) ) ;
#133 =( GEOMETRIC_REPRESENTATION_CONTEXT ( 3 ) GLOBAL_UNCERTAINTY_ASSIGNED_CONTEXT ( ( #154 ) ) GLOBAL_UNIT_ASSIGNED_CONTEXT ( ( #106, #103, #137 ) ) REPRESENTATION_CONTEXT ( 'NONE', 'WORKASPACE' ) );
#134 = CARTESIAN_POINT ( 'NONE',  ( 0.000000000000000000, 0.000000000000000000, 12.69999999999999929 ) ) ;
#135 = PERSON_AND_ORGANIZATION_ROLE ( 'design_owner' ) ;
#136 = APPROVAL_DATE_TIME ( #95, #71 ) ;
#137 =( NAMED_UNIT ( * ) SI_UNIT ( $, .STERADIAN. ) SOLID_ANGLE_UNIT ( ) );
#138 = CALENDAR_DATE ( 2020, 22, 12 ) ;
#139 = PRODUCT_DEFINITION_SHAPE ( 'NONE', 'NONE',  #99 ) ;
#140 = ORIENTED_EDGE ( 'NONE', *, *, #144, .T. ) ;
#141 = CIRCLE ( 'NONE', #17, 12.69999999999999929 ) ;
#142 = CYLINDRICAL_SURFACE ( 'NONE', #101, 12.69999999999999929 ) ;
#143 = CARTESIAN_POINT ( 'NONE',  ( 3.499999999999998224, 1.555301434917138433E-15, -12.69999999999999929 ) ) ;
#144 = EDGE_CURVE ( 'NONE', #76, #43, #164, .T. ) ;
#145 = DIRECTION ( 'NONE',  ( -1.000000000000000000, -0.000000000000000000, -0.000000000000000000 ) ) ;
#146 = EDGE_CURVE ( 'NONE', #43, #65, #48, .T. ) ;
#147 = ADVANCED_BREP_SHAPE_REPRESENTATION ( 'BK7-LPDBSP-25.4-1000', ( #32, #50 ), #133 ) ;
#148 = LOCAL_TIME ( 10, 18, 2.000000000000000000, #49 ) ;
#149 = AXIS2_PLACEMENT_3D ( 'NONE', #1, #77, #102 ) ;
#150 = EDGE_CURVE ( 'NONE', #76, #15, #131, .T. ) ;
#151 = ADVANCED_FACE ( 'NONE', ( #47 ), #117, .T. ) ;
#152 = EDGE_CURVE ( 'NONE', #15, #76, #141, .T. ) ;
#153 = CLOSED_SHELL ( 'NONE', ( #45, #151, #41, #25 ) ) ;
#154 = UNCERTAINTY_MEASURE_WITH_UNIT (LENGTH_MEASURE( 1.000000000000000082E-05 ), #106, 'distance_accuracy_value', 'NONE');
#155 = ORIENTED_EDGE ( 'NONE', *, *, #152, .T. ) ;
#156 = PERSON_AND_ORGANIZATION ( #100, #97 ) ;
#157 = ORIENTED_EDGE ( 'NONE', *, *, #127, .F. ) ;
#158 = PRODUCT ( 'BK7-LPDBSP-25.4-1000', 'BK7-LPDBSP-25.4-1000', '', ( #39 ) ) ;
#159 = DATE_TIME_ROLE ( 'creation_date' ) ;
#160 = SHAPE_DEFINITION_REPRESENTATION ( #139, #147 ) ;
#161 = ORIENTED_EDGE ( 'NONE', *, *, #122, .T. ) ;
#162 = CARTESIAN_POINT ( 'NONE',  ( -1.187907395172932594E-15, 0.000000000000000000, 12.69999999999999929 ) ) ;
#163 = COORDINATED_UNIVERSAL_TIME_OFFSET ( 8, 0, .AHEAD. ) ;
#164 = LINE ( 'NONE', #13, #59 ) ;
#165 = CARTESIAN_POINT ( 'NONE',  ( 3.499999999999998224, 0.000000000000000000, 0.000000000000000000 ) ) ;
#166 = CARTESIAN_POINT ( 'NONE',  ( 3.499999999999998224, 0.000000000000000000, 0.000000000000000000 ) ) ;
#167 = APPROVAL_PERSON_ORGANIZATION ( #171, #20, #56 ) ;
#168 = PERSON_AND_ORGANIZATION ( #100, #97 ) ;
#169 = APPROVAL_ROLE ( '' ) ;
#170 = AXIS2_PLACEMENT_3D ( 'NONE', #166, #7, #89 ) ;
#171 = PERSON_AND_ORGANIZATION ( #100, #97 ) ;
#172 = CC_DESIGN_DATE_AND_TIME_ASSIGNMENT ( #72, #68, ( #12 ) ) ;
#173 = PERSON_AND_ORGANIZATION_ROLE ( 'creator' ) ;
#174 = DATE_AND_TIME ( #124, #31 ) ;
#175 = CC_DESIGN_APPROVAL ( #71, ( #99 ) ) ;
ENDSEC;
END-ISO-10303-21;
